Регистрация

Разные песни - Стены

Генератор аккордов для песни
 
	Стены
        B  C  Am      Em           B  C 
     1.	Я    закрою шторами окно,	
         Am       Em            B   C 
	Чтобы не видеть больше ничего
	 Am      Em
	Я так устал мне все равно.

Припев:  B     C
	 Стены моя крепость
	  Am      Em       B С
	 А я за стенами сижу-У
	  Am       Em
	 Покой за ними нахожу.

     2.	День ты мною прожит как всегда
	Все время бесконечные дела
	Везде приследуют меня.

Припев:

     3.	Жизнь зачем безжалостна ко мне
	Иной я представлял ее себе
	Жизнь дай пощады пощади.

Припев:

     4.	Смерть зачем забрала ты любовь мою
	Жить без которой не могу
	Закройте дверь я ухожу.	

Припев:
	
Дополнительная информация
Перебор:
<br>                          1 вариант:
<br>
<br>       B                  C                 Am                 Em 
<br>--------0-----     --------0-----     --------------     --------------     
<br>--------0-----     --------2-----     --------0^1-1-     --------------
<br>-----0-----0--     -----0-----0--     -----2--------     --------------
<br>--------------     --------------     --2-----------     ------0-------
<br>--------------     --3-----------     --------------     --2-2---2-----
<br>--0-----------     --------------     --------------     --------------
<br>
<br>                           2 вариант:
<br>
<br>       B		  C       	    Am                 Em	
<br>--------0-----     --------0-----     ------------1-     --------------
<br>--------0-----     --------2-----     --------0^1---     --------------
<br>-----0--------     -----0-----0--     -----2--------     --------------  
<br>--------------     --------------     --2-----------     ------0-------
<br>--------------     -0-3----------     --------------     --2-2---2-----
<br>--0-----------     --------------     --------------     --------------</td></tr>

⇑ Наверх ⇑